28 julio 2020

UN NIÑO SE TE ACERCÓ (Cesáreo Gabaráin)


UN NIÑO SE TE ACERCÓ (Cinco Panes)
L. Y M.: CESÁREO GABARÁIN

"La Misa es una Fiesta" (1984)

Intro¹:
(DO) SOL SOL7
DO9 DO


DO SOL DO
Un niño se te acercó __ aquella tarde;
FA SOL DO4-DO
sus cinco panes te dio __para ayudar-te.
SOL DO9-DO
Los dos hicisteis que ya no hubiera ham-bre,
SOL DO
los dos hicisteis que ya no hubiera hambre.

DO SOL DO
La tierra, el aire y el sol __son tu regalo
FA SOL DO4-DO
y mil estrellas de luz __sembró tu ma-no.
SOL (VI-3 V-0-2-3) DO
El hombre pone su amor y su trabajo,
SOL DO
el hombre pone su amor y su trabajo.

Interludio¹:
(DO) SOL SOL7
DO9 DO

DO SOL DO
También yo quiero poner __sobre tu mesa
FA SOL DO4-DO
mis cinco panes que son __una prome-sa
SOL DO
de darte todo mi amor y mi pobreza,
SOL DO9-DO
de darte todo mi amor y mi pobre-za.

DO SOL DO
Un niño se te acercó __aquella tarde;
FA SOL DO4-DO
sus cinco panes te dio __para ayudar-te.
SOL (VI-3 V-0-2-3) DO
Los dos hicisteis que ya no hubiera hambre,
SOL DO
los dos hicisteis que ya no hubiera hambre.

Final²:
(DO) SOL
SIb7+/FA  DO...


Acordes:
DO = X32010 ó X32013 ó X35553
DO4 = X32011 ó X35563
DO9 = X3203X
SIb7/FA = 1X323X

Opción de digitación en:
- Si está en celular, leer Horizontalmente -
1] Intro e Interludio:

(DO)         SOL          SOL7          DO9          DO
|-----8-----|-3--1-0-1-----1---0--1--0-|----------------------0--3-|
|--8-----8--|-----------0--------------|-3--------3--1-----1-------|
|-----------|--------0---------0--2--0-|-------0--------0----------|
|-----------|----0---------------------|----2----------------------|
|-----------|--------------------------|-3-----------3-------------|
|-----------|-3------------------------|---------------------------|

2] Final

(DO)         SOL           SOL7         SIb7+/FA
|-----0-----|-3--1-0-1-----1---0--1--0-|-------------|
|--2-----3--|-----------0--------------|-3-----------|
|-----------|--------0---------0--2--0-|-------------|
|-----------|----0---------------------|-------------|
|-----------|--------------------------|-------0--2--|
|-----------|-3------------------------|-1--3--------|

 DO
|----------------------0-3---0-3-----8--|
|--1---------0-1-----1-----1------------|
|----------0-------0--------------------|
|--------2-------2----------------------|
|--3---3--------------------------------|
|---------------------------------------|

Cesáreo Gabaráin (n.1936) fue un sacerdote español, el cual compuso más de 500 canciones católicas, principalmente entre 1970 y 1990; de hecho si se revisa su discografía, produjo un disco al año aprox.
Esta canción, también conocida como "Cinco Panes", pertenece a la producción "La Misa es una Fiesta", realizada en el año 1984, el cual contiene canciones rítmicas y al mismo tiempo sencillas, fácil de cantar, hecha para Misa para niños.